A Loop - Tab

by John Frusciante

Album : The Will To Death

Video soon

Tablature by Jean Buchet

Tuning: E A D G B E - 4/4
Lyrics

Lyrics

Print

Download Tab


Intro :
|--------------------------|
|--------------------------|
|--------------------------|
|-----9-9---9-9---9-9------|
|-7-7-----7-----7-----7----|
|--------------------------| Repeat x4


|-----------------------------------------------|
|-----------------------------------------------|
|-----------------------------------------------|
|-----9-9--------7-7--------5-5--------4-4------|
|-7-7-----7--5-5-----5--3-3-----3--2-2-----2----|
|-----------------------------------------------|


|-----------------------------------------------|
|-----------------------------------------------|
|-----------------------------------------------|
|-----------------------------------------------|
|-----7-7--------5-5--------3-3-----------------|
|-5-5-----5--3-3-----3--1-1-----1--0------------|

<--------->
|-----------------------------------------------|
|-----------------------------------------------|
|-----------------------------------------------|
|-----9-9--------7-7--------5-5--------4-4------|
|-7-7-----7--5-5-----5--3-3-----3--2-2-----2----|
|-----------------------------------------------|


|-----------------------------------------------|
|-----------------------------------------------|
|-----------------------------------------------|
|-----------------------------------------------|
|-----7-7--------5-5--------3-3------2-----2----|
|-5-5-----5--3-3-----3--1-1-----1--0-----0------|
<--Repeat-->

***********************************************************

Bridge :
|------------------------------------------------|
|------------------------------------------------|
|------------------------------------------------|
|------------------------------------------------|
|-----7-7-------5-5----------3-3--------2-2------|
|-5-5-----5-3-3-----3-3--1-1-----1--0-0-----0----|


|------------------------------------------------|
|------------------------------------------------|
|------------------------------------------------|
|-----7-7--------5-5--------4-4---4-4---4-4------|
|-5-5-----5--3-3-----3--2-2-----2-----2-----2----|
|------------------------------------------------|

***********************************************************

I can't wait for life
  C    D   Esus2  C    D   Esus2  C    D   Esus2  D    B
|-----------7---------------7---------------7----------7----|
|-----------7---------------7---------------7-----7----7----|
|-5----7----9-----5----7----9-----5----7----9-----7----8----|
|-5----7----9-----5----7----9-----5----7----9-----7----9----|
|-3----5----7-----3----5----7-----3----5----7-----5----9----|
|------------------------------------------------------7----| 
x Repeat