Been Insane - Tab

by John Frusciante

Album : Niandra Lades and Usually just a T-shirt

Tablature by Jean Buchet

Tuning: E A D G B E - 3/3
Lyrics

Lyrics

Print

Download Tab


  Em  Am  Em    G   Am  B
|-0---0---5-----3---0--------|
|-5---0---4-----3---1---4----|
|-4---5---------0---2---4----|
|-5---7---5-----0---2---4----|
|-----0---------2---0---2----|
|-0-------0-----3------------|


  Bb  Dm  Bb  F#    Bb  F#    Bb  F#
|-----1-------4-2-------4-2-------4-2----|
|-3---3---3---2-2---3---2-2---3---2-2----|
|-3---2---3---3-3---3---3-3---3---3-3----|
|-3---0---3---4-4---3---4-4---3---4-4----|
|-1---0---1---------1---------1----------|
|-------------2-2-------2-2-------2-2----|

|| Repeat 

***********************************************************

|end >

  Bb  F#    Bb
|-----4-4--------|
|-3---2-2---3----|
|-3---3-3---3----|
|-3---4-4---3----|
|-1---------1----|
|-----2-2--------|