Carvel - Tab

by John Frusciante

Album : Shadows Collide With People

Video soon

Tablature by Jean Buchet

Tuning: E A D G B E - 4/4
Lyrics

Lyrics

Print

Download Tab


  Bm       F#m      G
|-2--------2--------3----|
|-3--------2--------3----|
|-4--------2--------4----|
|-4--------4--------5----|
|-2--------4--------5----|
|----------2--------3----|  Repeat x6


  G A  D    A    F#m  G A  D    A    F#m  G A
|-3-5-------5----2----3-5-------5----2----3-5----|
|-3-5--7----5----2----3-5--7----5----2----3-5----|
|-4-6--7----6----2----4-6--7----6----2----4-6----|
|-5-7--7----7----4----5-7--7----7----4----5-7----|
|-5-7--5----7----4----5-7--5----7----4----5-7----|
|-3-5-------5----2----3-5-------5----2----3-5----|


  Bm       F#m      G
|-2--------2--------3----|
|-3--------2--------3----|
|-4--------2--------4----|
|-4--------4--------5----|
|-2--------4--------5----|
|----------2--------3----|    Repeat x2


  G A  D    A    F#m  G A  D    A    F#m  G 
|-3-5-------5----2----3-5-------5----2----3----|
|-3-5--7----5----2----3-5--7----5----2----3----|
|-4-6--7----6----2----4-6--7----6----2----4----|
|-5-7--7----7----4----5-7--7----7----4----5----|
|-5-7--5----7----4----5-7--5----7----4----5----|
|-3-5-------5----2----3-5-------5----2----3----|


Sending a dummy to my god...
  A   G   A   G   A   G   A   F#G
|-5---3---5---3---5---3---5---2-3----|
|-5---3---5---3---5---3---5---2-3----|
|-6---4---6---4---6---4---6---2-4----|
|-7---5---7---5---7---5---7---4-5----|
|-7---5---7---5---7---5---7---4-5----|
|-5---3---5---3---5---3---5---2-3----|


  Bm       F#m      G
|-2--------2--------3----|
|-3--------2--------3----|
|-4--------2--------4----|
|-4--------4--------5----|
|-2--------4--------5----|
|----------2--------3----|    Repeat x4

***********************************************************

       Driving to eat...
  G A  D    A    F#m  G A  D    A    F#m  G  F#m  F#
|-3-5-------5----2----3-5-------5----2----3--2----2--|
|-3-5--7----5----2----3-5--7----5----2----3--2----2--|
|-4-6--7----6----2----4-6--7----6----2----4--2----3--|
|-5-7--7----7----4----5-7--7----7----4----5--4----4--|
|-5-7--5----7----4----5-7--5----7----4----5--4----4--|
|-3-5-------5----2----3-5-------5----2----3--2----2--|


Have you gone...
  Bm       D        A      G
|-----2---------------5----3----|
|-----3--------7------5----3----|
|-----4--------7------6----4----|
|-----4--------7------7----5----|
|-2-2-2----5-5-5----7-7----5----|
|-------------------5-5----3----|    Repeat x8


  Em   A    F#m  G
|-0---------2----3----|
|-0----2----2----3----|
|-0----2----2----4----|
|-2----2----4----5----|
|-2----0----4----5----|
|-0---------2----3----|

Repeat from "Have you gone"

***********************************************************

End
  D    A    Bm   G
|------5----2----3----|
|-7----5----3----3----|
|-7----6----4----4----|
|-7----7----4----5----|
|-5----7----2----5----|
|------5---------3----|


  D    A    D
|------5---------|
|-7----5----7----|
|-7----6----7----|
|-7----7----7----|
|-5----7----5----|
|------5---------|