Chances - Tab

by John Frusciante

Album : Shadows Collide With People

Video soon

Tablature by Jean Buchet

Tuning: E A D G B E - 4/4
Lyrics

Lyrics

Print

Download Tab


  D#mG#     C#   F        D#m  G#   C#   F#
|-6----4---------1--------6----4---------2----|
|-7----4----6----1--------7----4----6----2----|
|-8----5----6----2--------8----5----6----3----|
|-8----6----6----3--------8----6----6----4----|
|-6----6----4----3--------6----6----4----4----|
|------4---------1-------------4---------2----|


  D#m  G#   C#   A#m   F#   G#   C#
|-6----4---------6-----2----4---------|
|-7----4----6----6-----2----4----6----|
|-8----5----6----6-----3----5----6----|
|-8----6----6----8-----4----6----6----|
|-6----6----4----8-----4----6----4----|
|------4---------6-----2----4---------|

***********************************************************

  A#m  Fm+  Cm+5   A#m  Fm+  Cm+5  
|-6----------------6---------------|
|-6----2----1------6----2----1-----|
|-6---------1------6---------1-----|
|-8----3----1------8----3----1-----|
|-8----4----3------8----4----3-----|
|-6----4----4------6----4----4-----|

  A#m  Fm+  Cm+5   F#   G#   C#
|-6----------------2----4----------|
|-6----2----1------2----4----6-----|
|-6---------1------3----5----6-----|
|-8----3----1------4----6----6-----|
|-8----4----3------4----6----4-----|
|-6----4----4------2----4----------|

***********************************************************

  F#   G#   C# A#m      F#   G#   C# A#m      F#   G#   C#
|-2----4-------6--------2----4-------6--------2----4-------|
|-2----4----6--6--------2----4----6--6--------2----4----6--|
|-3----5----6--6--------3----5----6--6--------3----5----6--|
|-4----6----6--8--------4----6----6--8--------4----6----6--|
|-4----6----4--8--------4----6----4--8--------4----6----4--|
|-2----4-------6--------2----4-------6--------2----4-------|