Estress - Tab

by John Frusciante

Album : Smile From The Streets You Hold

Video soon

Tablature by Jean Buchet

Tuning: E A D G B E - 4/4
Lyrics

Lyrics

Print

Download Tab


  F#    B    D#m
|-------7----6--------|
|-11----7----7--------|
|-11----8----8--------|
|-11----9----8--------|
|--9----9----6--------|
|-------7-------------|

***********************************************************

  F#   C#   D#m  B
|-2---------6----7----|
|-2----6----7----7----|
|-3----6----8----8----|
|-4----6----8----9----|
|-4----4----6----9----|
|-2--------------7----|