For Air - Tab

by John Frusciante

Album : Smile From The Streets You Hold

Video soon

Tablature by Jean Buchet

Tuning: E A D G B E - 4/4
Print

Download Tab


|-------------------------------7--------|
|------------------------5--------7------|
|---------6b7-6pb7r6-4-------------------|
|-----4----------------5---4-4-----------|
|-----------------------------------5----|
|-2-2---2--------------------------------|


|-----5------9----------7------|
|-7s8---8s10---10s7-----7------|
|------------------------------|
|------------------------------|
|------------------------------|
|-------------------7-7---7----|


|---------------------7------|
|---------------------7------|
|----------------------------|
|-7-----7-----7--------------|
|---5-5---5-5---5------------|
|-----------------7-7---7----|


|-------------------------------------------7--------|
|------------------------------------5--------7------|
|---------------------6b7-6pb7r6-4-------------------|
|-7p5---7p5-------4----------------5---4-4-----------|
|-----5-----5-----------------------------------5----|
|-------------2-2---2--------------------------------|


|------9------------7--------------------7------|
|-8s10---10s8-7-----7--------------------7------|
|-----------------------------------------------|
|------------------------7p5---7p5--------------|
|----------------------------5-----5------------|
|---------------7-7---7--------------7-7---7----|


|-------------------------------------------7--------|
|------------------------------------5--------7------|
|---------------------6b7-6pb7r6-4-------------------|
|-7p5---7p5-------2----------------5---4-4-----------|
|-----5-----5-----------------------------------5----|
|-------------2-2---2--------------------------------|


|-----5------9-----------7------|
|-7s8---8s10---10s7------7------|
|-------------------------------|
|-------------------------------|
|-------------------------------|
|--------------------7-7---7----|


|------------------7------|
|------------------7------|
|-------------------------|
|-7p5---7p5---------------|
|-----5-----5-------------|
|-------------7-7----7----|


|--------------------------------------------7--------|
|-------------------------------------5--------7------|
|----------------------6b7-6pb7r6-4-------------------|
|-7p5---7p5--------2----------------5----4-4----------|
|-----5-----5------------------------------------5----|
|-------------2-2----2--------------------------------|


|------9-------------7----|
|-8s10---10s8-7------7----|
|-------------------------|
|-------------------------|
|-------------------------|
|---------------7-7-------|

***********************************************************
Tablature Legend
----------------
 h   - hammer-on
 p   - pull-off
 b   - bend
 pb  - pre-bend
 r   - bend release (if no number after the r,
 	   then release immediately)
 /\  - slide into or out of (from/to "nowhere")
 s   - legato slide
 S   - shift slide