Going Inside - Tab

by John Frusciante

Album : To Record Only Water For Ten Days

Video soon

Tablature by Jean Buchet

Tuning: E A D G B E - 4/4
Lyrics

Lyrics

Print

Download Tab


  Gm    C
|-3---------------------------------------------|
|-3-----5--------6-------3-------6-------3------|
|-3-----5---------------------------------------|
|-5-----5------8---8---5---5---8---8---5---5----|
|-5-----3----6-------3-------6-------3----------|
|-3---------------------------------------------|
Repeat x4


  Gm   F    C    Eb
|-3----1---------3----|
|-3----1----5----4----|
|-3----2----5----3----|
|-5----3----5----5----|
|-5----3----3----6----|
|-3----1--------------| Repeat x3


  Gm   F    C    D#
|-3----1--------------|
|-3----1----5----8----|
|-3----2----5----8----|
|-5----3----5----8----|
|-5----3----3----6----|
|-3----1--------------|


  A#   F     Cm    Gm    A#   F     Cm    D#
|-6-----------8----10----6-----------8---------|
|-6----10-----8----11----6----10-----8----8----|
|-7----10-----8----12----7----10-----8----8----|
|-8----10----10----12----8----10----10----8----|
|-8-----8----10----10----8-----8----10----6----|
|-6-----------8----------6-----------8---------|

Repeat from begining

***********************************************************
END

  A#   F     C
|-6-----------8----|
|-6----10-----8----|
|-7----10-----9----|
|-8----10----10----|
|-8-----8----10----|
|-6-----------8----|

                                                  F
|-------------------------------------------------1----|
|-----6-------3-------6-------3-------6-------3---1----|
|-------------------------------------------------2----|
|---8---8---5---5---8---8---5---5---8---8---5---5-3----|
|-6-------3-------6-------3-------6-------3-------3----|
|-------------------------------------------------1----|

                                                  Gm
|-------------------------------------------------3----|
|-----6-------3-------6-------3-------6-------3---3----|
|-------------------------------------------------3----|
|---8---8---5---5---8---8---5---5---8---8---5---5-5----|
|-6-------3-------6-------3-------6-------3-------5----|
|-------------------------------------------------3----|