Hope - Tab

by John Frusciante

Album : Curtains

Video soon

Tablature by Jean Buchet

Tuning: E A D G B E - 4/4
Lyrics

Lyrics

Print

Download Tab


Verse

|--------------------------------------------------------|
|---4------4------2------4------5------4------5------4---|
|---4------4------3------4------6------4------6------4---|
|---------------4---4------------------------------------|
|--------2---2----------------4---4---------6---6--------|
|-4---4----------------4---4---------4---4---------4---4-|

Repeat x1

***********************************************************

Transition

|--------------|
|---4-----4----|
|---4-----4----|
|--------------|
|--------------|
|-4---4-4------|

***********************************************************

Chorus

|-----------------------------0---------------------------|
|-4--2--4-----4--2--4---4-----0------4------5------4------|
|-4--3--4-----4--3--4---4-----1------4------6------4------|
|----------5----------------2---2----4----5---5-----------|
|----------6-----------------------2---2------------------|
|---------------------2--------------------------4---4----|


|----------------------|
|---4-----4-----4------|
|---4-----4-----4------|
|----------------------|
|----------------------|
|-4---4-4---4-4---4----|