How High - Tab

by John Frusciante

Album : From The Sounds Inside - Internet Album

Tablature by Jean Buchet

Tuning: E A D G B E - 4/4
Lyrics

Lyrics

Print

Download Tab


  Bm       F#m
|---------------------|
|-----3--------2------|
|-----4--------2------|
|---4---4--------3----|
|-2-----2----3---3----|
|----------2----------| X Repeat


  D       A         Em    G
|------------------------------------|
|-----7-------5-------8-------3------|
|-----7-7-----6-6-----9-9-----4-4----|
|---7---7-------7---9---9-------5----|
|-5---------7-----7---------5--------|
|---------5---------------3----------| Repeat X2

***********************************************************

End :

  Bm
|-2----|
|-3----|
|-4----|
|-4----|
|-2----|
|------|