I Will Always Be Beat Down - Tab

by John Frusciante

Album : From The Sounds Inside - Internet Album

Tablature by Jean Buchet

Tuning: E A D G B E - 4/4
Lyrics

Lyrics

Print

Download Tab


Verse :

|-------5---------------3------------|
|-----5---------5-----3---------3----|
|---5---------4-----4---------2------|
|-7---------5-----5---------4--------|
|---------7---------------5----------|
|------------------------------------| X Repeat

***********************************************************

Chorus :

|--------10---------------------12----------------|
|-----10------------10-------13-------------12----|
|---9------------10-------12-------------12-------|
|-7-----------10-------10-------------12----------|
|-----------8----------------------10-------------|
|-------------------------------------------------|


|--------10---------------------12----------------|
|-----10------------10-------13----------9--------|
|---9------------10-------12-----------9----------|
|-7-----------10-------10------------9------------|
|-----------8----------------------7--------------|
|-------------------------------------------------|
Repeat

***********************************************************

End :

|-------5---------------3-2-2----|
|-----5---------5-----3---3-3----|
|---5---------4-----4-----2-2----|
|-7---------5-----5-------4-4----|
|---------7---------------5-5----|
|--------------------------------|


|-------5---------------3-2------|
|-----5---------5-----3---3------|
|---5---------4-----4-----2------|
|-7---------5-----5-------4------|
|---------7---------------5------|
|--------------------------------|


|-------5---------------3-2-2----|
|-----5---------5-----3---3-3----|
|---5---------4-----4-----2-2----|
|-7---------5-----5-------4-4----|
|---------7---------------5-5----|
|--------------------------------|


|-------5---------------3-2-5----|
|-----5---------5-----3---3-5----|
|---5---------4-----4-----2-5----|
|-7---------5-----5-------4-7----|
|---------7---------------5-7----|
|---------------------------5----|