Lever Pulled - Tab

by John Frusciante

Album : Curtains

Video soon

Tablature by Jean Buchet

Tuning: E A D G B E - Tune down 1/2 step - 4/4
Lyrics

Lyrics

Print

Download Tab


  Em      C     Em        C    G    Am
|---------------------------------------------|
|---8---8---5-----8-----8---5---------5--5----|
|---9---9---5-----9-----9---5---------5--5----|
|-9-------------------9-----------------------|
|-7-------3---------------3----5-5------------|
|---------------0--------------3-3--5---------|


  C       Em    Am          C     D6
|------------------------------------7----|
|---5-5-------------5----5-----5----------|
|---5-5-------------5----5-----5-----7----|
|---------2-2---------------5-----7-------|
|-3-------2-2---------------3-----5-------|
|---------0-0---5-5----5------------------| 

Repeat from begining with little variations

***********************************************************

Bridge / End :

  Em   C    D    Em        C    D    Am
|-7--------------9-10-9-------------------|
|-8----5----7----8--8-8----5----7----5----|
|-9----5----7----9----9----5----7----5----|
|-9----5----7----9--9-9----5----7----7----|
|-7----3----5----7--7-7----3----5----7----|
|-0----------------------------------5----|


  C    Em   Am   C    D
|--------------------------|
|-5----0----5----5----7----|
|-5----0----5----5----7----|
|-5----2----7----5----7----|
|-3----2----7----3----5----|
|------0----5--------------|

***********************************************************

Second verse :

  Em   C    Em   C  G   Am
|-7---------7-----------5----|
|-8----5----8----5--3-3-5----|
|-9----5----9----5--4-4-5----|
|-9----5----9----5--5-5-7----|
|-7----3----7----3--5-5-7----|
|-0---------0-------3-3-5----|


  C  Em  Am   C    D6   Em
|--------5---------7----7----|
|-5------5----5----7----8----|
|-5--0-0-5----5----7----9----|
|-5--2-2-7----5----7----9----|
|-3--2-2-7----3----5----7----|
|----0-0-5--------------0----|