Loss - Tab

by John Frusciante

Album : The Will To Death

Video soon

Tablature by Jean Buchet

Tuning: E A D G B E - 4/4
Lyrics

Lyrics

Print

Download Tab


Part 1 :

  A          E          C#     C#7b9  F#m
|------------0-0----------------------2-2----|
|-2-2--------0-0--------2-2----3-3----2-2----|
|-2-2--------1-1--------1-1----4-4----2-2----|
|-2-2--------2-2--------3-3----3-3----4-4----|
|-0-0--------2-2--------4-4----4-4----4-4----|
|------------0-0----------------------2-2----| X repeat

***********************************************************

Part 2 :

  E  F#m  E  F#m    E  F#m  Bm F#m  A  E
|-0--2----0--2------0--2----2--2-------0----|
|-0--2----0--2------0--2----3--2----2--0----|
|-1--2----1--2------1--2----4--2----2--1----|
|-2--4----2--4------2--4----4--4----2--2----|
|-2--4----2--4------2--4----2--4----0--2----|
|-0--2----0--2------0--2-------2-------0----|


  E  F#m  E  F#m    E  F#m  D  A    E  Bm
|-0--2----0--2------0--2----2-------0--2----|
|-0--2----0--2------0--2----3--2----0--3----|
|-1--2----1--2------1--2----2--2----1--4----|
|-2--4----2--4------2--4----0--2----2--4----|
|-2--4----2--4------2--4----0--0----2--2----|
|-0--2----0--2------0--2------------0-------|

***********************************************************

End :

  A    E    Bm
|------0----2----|
|-2----0----3----|
|-2----1----4----|
|-2----2----4----|
|-0----2----2----|
|------0---------|


  A        E    D    A    E    Bm
|----------0----2---------0----2--------|
|-2--------0----3----2----0----3--------|
|-2--------1----2----2----1----4--------|
|-2--------2----0----2----2----4--------|
|-0--------2----0----0----2----2--------|
|----------0--------------0-------------| X repeat