Lou Bergs - Tab

by John Frusciante

Album : From The Sounds Inside - Internet Album

Video soon

Tablature by Jean Buchet

Tuning: E A D G B E - 4/4
Lyrics

Lyrics

Print

Download Tab


|---5------------------5-----------------|
|-----------5----5s7-----------5-----5s7-|
|-------6------------------6-------------|
|-4---4--------------4---4---------------|
|---------4----5-------------4---4h5-----|
|----------------------------------------| X Repeat

***********************************************************

  A        Bm       C#m  D
|----------2--------4---------|
|-2--------3--------5----7----|
|-2--------4--------6----7----|
|-2--------4--------6----7----|
|-0--------2--------4----5----|
|-----------------------------|


|---5------------------5-----------------|
|-----------5----5s7-----------5-----5s7-|
|-------6------------------6-------------|
|-4---4--------------4---4---------------|
|---------4----5-------------4---4h5-----|
|----------------------------------------| X Repeat

***********************************************************

  A    Bm   C#m  D    F#m           A
|------2----4---------2------------------|
|-2----3----5----7----2-------------2----|
|-2----4----6----7----2-------------2----|
|-2----4----6----7----4-------------2----|
|-0----2----4----5----4-------------0----|
|---------------------2------------------|


  F#m           A     F#m add9      A
|-2-------------------4------------------|
|-2-------------2-----2-------------2----|
|-2-------------2-----2-------------2----|
|-4-------------2-----4-------------2----|
|-4-------------0-------------------0----|
|-2-------------------2------------------| X Repeat

***********************************************************

  Bm       C#m  D
|-2--------4---------|
|-3--------5----7----|
|-4--------6----7----|
|-4--------6----7----|
|-2--------4----5----|
|--------------------|


|---5--------------------------9-----5s7---|
|-----------5----5s7-----------------------|
|-------6--------------6-------------------|
|-4---4--------------------7---------------|
|---------4----5-------------7---7s5-------|
|--------------------5---5-----------------|


|---5--------------------------------------|
|-----------5----5s7-----------------------|
|-------6--------------6--6--6--9--9--7--7-|
|-4---4------------------------------------|
|---------4----5---------------7--7--5--5--|
|--------------------5---5--5--------------|


|---5--------------------------------------|
|-----------5----5s7------------9-----7----|
|-------6--------------6----6--------------|
|-4---4------------------------------------|
|---------4----5--------------7---7s5------|
|--------------------5----5----------------|


|---5--------------------------9-----5s7---|
|-----------5----5s7-----------------------|
|-------6--------------6-------------------|
|-4---4--------------------7---------------|
|---------4----5-------------7---7s5-------|
|--------------------5---5-----------------|


                     A      Bm     C# D  A
|---5-----------------------2------4-------|
|-----------5----5s7-2------3------5--7--2-|
|-------6------------2------4------6--7--2-|
|-4---4--------------2------4------6--7--2-|
|---------4----5-----0------2------4--5--0-|
|------------------------------------------|

***********************************************************

Tablature Legend
----------------
h : hammer-on
s : legato slide