Murderers - Tab

by John Frusciante

Album : To Record Only Water For Ten Days

Video soon

Tablature by Jean Buchet

Tuning: E A D G B E - 4/4
Print

Download Tab


Riff 1 :

|--------------------9-12-----------------------------|
|---12---9-10---10--------12-10-9-10------------------|
|-----------------------------------------------------|
|-----------------------------------------------------|
|-9----9------9----9-----------------9-9---9-9-9-9----|
|-----------------------------------------------------|


|-----------------------9-----------------------------|
|---12---9-10---10---12---12-10-9-10------------------|
|-----------------------------------------------------|
|-----------------------------------------------------|
|-9----9------9----9-----------------9-9-9-9-9-9-9----|
|-----------------------------------------------------|


|--------------------9-12-----------------------------|
|---12---9-10---10--------12-10-9-10------------------|
|-----------------------------------------------------|
|-----------------------------------------------------|
|-9----9------9----9-----------------9-9---9-9-9-9----|
|-----------------------------------------------------|


|-----------------------9-----------------------------|
|---12---9-10---10---12---12-10-9-10------------------|
|-----------------------------------------------------|
|-----------------------------------------------------|
|-9----9------9----9-----------------9-9-9-9-9-9-9----|
|-----------------------------------------------------|

***********************************************************

Bridge :

|-------------------------------------|
|-9--------10-------9--------6--------|
|-------------------------------------|
|-------------------------------------|
|-7--------9--------7--------4--------|
|-------------------------------------|

***********************************************************

Riff 2 :

|---------------------------------------------|
|---7---7---9---9-10----10---10-10---10-------|
|---------------------------------------------|
|---------------------------------------------|
|-5---5---7---7----9--9----9-------9----------|
|---------------------------------------------|


|---------------------------------------------|
|---7---7---9---9-12----10---10-10---10-------|
|---------------------------------------------|
|---------------------------------------------|
|-5---5---7---7----9--9----9-------9----------|
|---------------------------------------------|


|----12----12---------------------------------|
|---------------9---9-10----10---10-10---10---|
|---------------------------------------------|
|---------------------------------------------|
|-------------7---7----9--9----9-------9------|
|-10----10------------------------------------|


|----------------------|
|---7---7---9---9-6----|
|----------------------|
|----------------------|
|-5---5---7---7---4----|
|----------------------|

***********************************************************

Riff 3 :

|------------------------------------------|
|---9---10---9----12---10------9---10-4----|
|------------------------------------------|
|------------------------------------------|
|-7---9----7---9-----9----9--7---9----2----|
|------------------------------------------| Repeat x1