My Smile Is A Rifle - Tab

by John Frusciante

Album : Niandra Lades and Usually Just a T-Shirt

Tablature by Jean Buchet

Tuning: E A D G B E - 4/4
Lyrics

Lyrics

Print

Download Tab


INTRO :
|-----------------------------------|
|----------------------------8p5----|
|-7-9-7-9-7------5-7-5-7-5-7--------|
|-------------9---------------------|
|-----------------------------------|
|-8---8---8-0----5---5---5---0------|


|------------------|
|------------------|
|-7-9-7-9-7--------|
|-------------5h6--|
|-------------7----|
|-8---8---8-0------|


|------------------------------------------------|
|---10p8----10p8----10p8----10p8----10p8---------|
|----0-------0-------0-------0-------0------9----|
|-------------------------------------------9----|
|10------10------10------10------10------10-7----|
|-------------------------------------------0----|


|-----------------------------------|
|----------------------------8p5----|
|-7-9-7-9-7------5-7-5-7-5-7--------|
|-------------9---------------------|
|-----------------------------------|
|-8---8---8-0----5---5---5---0------|


|--------------------------------------------------0----|
|--------------------3-----3-----3-----3-----3-----0----|
|-7-9-7-9-7------------4-----4-----4-----4-----4---1----|
|-------------5h6--5-----5-----5-----5-----5-----5-2----|
|-------------7------------------------------------2----|
|-8---8---8-0--------------------------------------0----|

***********************************************************

VERSE :
|---0---0------------------------|
|---1---1---0-----1---1----------|
|---2---2-----0---2---2---0------|
|-----------------2---2-----0----|
|-0---0---------0---0------------|
|---------3-------------3--------|

***********************************************************

CHORUS :
  F       E       F       G
|------------------------------------|
|---1---1---0---0---1---1---0---0----|
|---2---2---1---1---2---2---0---0----|
|---3---3---2---2---3---3---0---0----|
|---3---3---2---2---3---3---2---2----|
|-1---1---0---0---1---1---3---3------|



Tablature Legend
----------------
 h   - hammer-on
 p   - pull-off