Omission - Tab

by John Frusciante

Album : Shadows Collide With People

Video soon

Tablature by Jean Buchet

Tuning: E A D G B E - 4/4
Lyrics

Lyrics

Print

Download Tab


Verse

  C        G7       Am       Fadd9
|----------1--------0--------3----|
|-1--------0--------1--------1----|
|-0--------0--------2--------2----|
|-2--------0--------2--------3----|
|-3--------2--------0-------------|
|----------3-----------------1----|

***********************************************************

Pre chorus

  C        G7       Am
|----------1--------0----|
|-1--------0--------1----|
|-0--------0--------2----|
|-2--------0--------2----|
|-3--------2--------0----|
|----------3-------------|

***********************************************************

Chorus

  Fmaj7    Asus4    Fmaj7     Asus4
|-5--------5--------5---------5----|
|-5--------5--------5---------5----|
|-5--------7--------5---------7----|
|-7--------7--------7---------7----|
|-8--------5--------8---------5----|
|----------------------------------|