Regret - Tab

by John Frusciante

Album : Shadows Collide With People

Video soon

Tablature by Jean Buchet

Tuning: E A D G B E - 4/4
Lyrics

Lyrics

Print

Download Tab


INTRO
 C
|----------------------------------
|--------1---------------1---------
|------0---0-----------0---0-------
|----2-------2-------2-------2-----
|3-3-----------3-3-3-----------3-3-
|----------------------------------

----------------------------0|
------1----------------------|
----0---0-----------0-----0--|
--2-------2-------2----------|
3-----------3-3-3-----2-2----|
-----------------------------|

  Am              C              
|--------0---------------0-------
|------1---1-----------1---1-----
|----2---------------0-----------
|--2---------------2-------------
|0-----------0-2-3-----------3-2-
|--------------------------------

 Am              C
--------0---------------0------|
------1---1-----------1---1----|
----2---------------0----------|
--2---------------2------------|
0-----------0-2-3-----------3-2|
-------------------------------|

  G               F               
|-------3---------------1---------
|-----0---0-----------1---1-------
|---0-------0-------2-------2-----
|---------------------------------
|-----------------------------3---
|-3-----------3-2-1-------------1-

Am
----0------0------0----------|
----1------1------1--1-------|
----2------2------2--2--0----|
--2-2------2------2--2--0----|
0---0--0-0-0--0-0-0--0--2----|
-----------------------------|

***********************************************************

VERSE
  C    G    Em   F  G  Am   G    Em   F  G
|-0----3----0----1--3--0----3----0----1--3----|
|-1----0----0----1--0--1----0----0----1--0----|
|-0----0----0----2--0--2----0----0----2--0----|
|-2----0----2----3--0--2----0----2----3--0----|
|-3----2----2----3--2--0----2----2----3--2----|
|------3----0----1--3-------3----0----1--3----| X2

***********************************************************

CHORUS
  F    C  G          F    E    E7
|-1----0--3--|     |-1----0----0----|
|-1----1--0--|     |-1----0----3----|
|-2----0--0--|     |-2----1----1----|
|-3----2--0--|     |-3----2----2----|
|-3----3--2--|     |-3----2----2----|
|-1-------3--| x3  |-1----0----0----|