Representing - Tab

by John Frusciante

Album : To Record Only Water For Ten Days

Video soon

Tablature by Jean Buchet

Tuning: E A D G B E - 4/4
Lyrics

Lyrics

Print

Download Tab


  Bm       D    Em   Bm       D    Em
|-0-------------7----0-------------7----|
|-0--------7----8----0--------7----8----|
|-7--------7----9----7--------7----9----|
|-9--------7----9----9--------7----9----|
|-9--------5----7----9--------5----7----|
|-7------------------7------------------|


  F#m   G     A     Bm       Em   A     Bm         Em   A 
|--9----------------0--------0---------------------0------|
|-10----12----14----0--------0----2-----3--5-3-5-3-0----2-|
|-11----12----14----7--------0----2----------------0----2-|
|-11----12----14----9--------2----2-----4--4-4-4-4-2----2-|
|--9----10----12----9--------2----0-----2--2-2-2-2-2----0-|
|-------------------7--------0---------------------0------|

|| Repeat from the beginning x1

***********************************************************

  G    F#   Bm    D  G      D  Bm    D  G      D
|-3----2----2--2--2--3-3-3--2--2--2--2--3-3-3--2--|
|-0----2----3--3--3--0-0-0--3--3--3--3--0-0-0--3--|
|-0----3----4--4--2--0-0-0--2--4--4--2--0-0-0--2--|
|-0----4----4--4--0--0-0-0--0--4--4--0--0-0-0--0--|
|-2----4----2--2--0--2-2-2--0--2--2--0--2-2-2--0--|
|-3----2-------------3-3-3--------------3-3-3-----|

|| Repeat x1

***********************************************************

END

  Bm    D  G      D  Bm    D  G      D  Bm
|-2--2--2--3-3-3--2--2--2--2--3-3-3--2--2----|
|-3--3--3--0-0-0--3--3--3--3--0-0-0--3--3----|
|-4--4--2--0-0-0--2--4--4--2--0-0-0--2--4----|
|-4--4--0--0-0-0--0--4--4--0--0-0-0--0--4----|
|-2--2--0--2-2-2--0--2--2--0--2-2-2--0--2----|
|----------3-3-3--------------3-3-3----------|