Second Walk - Tab

by John Frusciante

Album : Shadows Collide With People

Video soon

Tablature by Jean Buchet

Tuning: E A D G B E - 4/4
Lyrics

Lyrics

Print

Download Tab


  A    E    F#m
|------0----2--------|
|-2----0----2--------|
|-2----1----2--------|
|-2----2----4--------|
|-0----2----4--------|
|------0----2--------| X Repeat


  A    E    F#m
|-5----------9-------|
|-5----9----10-------|
|-6----9----11-------|
|-7----9----11-------|
|-7----7-----9-------|
|-5------------------| X Repeat

***********************************************************

End :

  A        E        F#m
|----------0--------2------------|
|-2--------0--------2------------|
|-2--------1--------2------------|
|-2--------2--------4------------|
|-0--------2--------4------------|
|----------0--------2------------|