Someone's - Tab

by John Frusciante

Album : To Record Only Water For Ten Days

Video soon

Tablature by Jean Buchet

Tuning: E A D G B E - 4/4
Lyrics

Lyrics

Print

Download Tab


  Gm
|-3----|
|-3----|
|-3----|
|-5----|
|-5----|
|-3----| Repeat x4

***********************************************************

  Gm   Cm   Gm   Cm   A#   Cm   A#   Cm
|-3----3----3----3---------3---------3----|
|-3----4----3----4----3----4----3----4----|
|-3----5----3----5----3----5----3----5----|
|-5----5----5----5----3----5----3----5----|
|-5----3----5----3----1----3----1----3----|
|-3---------3-----------------------------| Repeat x2

***********************************************************

  D#   F
|----------------|
|-8----10--------|
|-8----10--------|
|-8----10--------|
|-6-----8--------|
|----------------|