Song To Sing When I'm Lonely - Tab

by John Frusciante

Album : Shadows Collide With People

Video soon

Tablature by Jean Buchet

Tuning: E A D G B E - 4/4
Lyrics

Lyrics

Print

Download Tab


INTRO :

  B            D#m          C#               G#m
|--------------------6-----------------------------4------|
|-------7----------7---7------------9----------4-----4----|
|-----8---8------8-------8-------10---10---------4-----4--|
|---9-------9-----------------11---------11---------------|
|--------------6------------------------------------------|
|-7-------------------------9----------------4------------|


  B            D#m          C#
|--------------------6-----------------------|
|-------7----------7---7------------9--------|
|-----8---8------8-------8-------10---10-----|
|---9-------9-----------------11---------11--|
|--------------6-----------------------------|
|-7-------------------------9----------------|


 G#m
|------4--------4-------4------------|
|--4--------4-------4---------4------|
|----4--------4-------4---------4----|
|---------6-----------------6--------|
|------------------------------------|
|4----------------4------------------|

***********************************************************

VERSE :

  B    D#m  C#    G#m          G#m
|-7----6-----9----4----|     |-4----|
|-7----7-----9----4----|     |-4----|
|-8----8----10----4----|     |-4----|
|-9----8----11----6----|     |-6----|
|-9----6----11----6----|     |-6----|
|-7----------9----4----| X2  |-4----|


  F#   C#   G#m
|-2---------4--------|
|-2----6----4--------|
|-3----6----4--------|
|-4----6----6--------|
|-4----4----6--------|
|-2---------4--------| x3


  G#m      F# C#
|-4--------2-------|
|-4--------2--6----|
|-4--------3--6----|
|-6--------4--6----|
|-6--------4--4----|
|-4--------2-------| x2


  B           F# G#m          F# G#m
|-7-----------2--4----|     |-2--4----|
|-7-----------2--4----|     |-2--4----|
|-8-----------3--4----|     |-3--4----|
|-9-----------4--6----|     |-4--6----|
|-9-----------4--6----|     |-4--6----|
|-7-----------2--4----| x2  |-2--4----| x4