Ten to butter blood voodoo - Tab

by John Frusciante

Album : Niandra Lades and Usually just a T-shirt

Tablature by Jean Buchet

Tuning: E A D G B E - 4/4
Lyrics

Lyrics

Print

Download Tab


  Dm Am Dm        Am   A# Am A# Am
|-5--5--5---------5----6--5--6--5----|
|-6--5--6---------5----6--5--6--5----|
|-7--5--7---------5----7--5--7--5----|
|-7--7--7-3h5p3p0-7----8--7--8--7----|
|-5--7--5---------7----8--7--8--7----|
|-5--5--5---------5----6--5--6--5----|


  Dm Am Dm Am   A# AmA  A# A
|-5--5--5--5----6--5-5--6--5----|
|-6--5--6--5----6--5-5--6--5----|
|-7--5--7--5----7--5-6--7--6----|
|-7--7--7--7----8--7-7--8--7----|
|-5--7--5--7----8--7-7--8--7----|
|-5--5--5--5----6--5-5--6--5----|


  D# F   Gm    D# F   A#
|--------10-----------6----|
|-8--10--11----8--10--6----|
|-8--10--12----8--10--7----|
|-8--10--12----8--10--8----|
|-6---8--10----6---8--8----|
|-6---8--10----6---8--6----|


  B  C#  Ebm  F#  C#  Ebm  F#  C#  EbmB
|-7---9--6---------9--6---------9--6--7----|
|-7---9--7----11---9--7----11---9--7--7----|
|-8--10--8----11--10--8----11--10--8--8----|
|-9--11--8----11--11--8----11--11--8--9----|
|-9--11--6-----9--11--6-----9--11--6--9----|
|-7---9--6-----9---9--6-----9---9--6--7----|


  EbmC#  B    Eb  C#  B    F#
|-6---9--7----11---9--7----2----|
|-7---9--7----11---9--7----2----|
|-8--10--8----12--10--8----3----|
|-8--11--9----13--11--9----4----|
|-6--11--9----13--11--9----4----|
|-6---9--7----11---9--7----2----|

***********************************************************

Tablature Legend
----------------
 h   - hammer-on
 p   - pull-off