The Days Have Turned - Tab

by John Frusciante

Album : The Will To Death

Video soon

Tablature by Jean Buchet

Tuning: E A D G B E - 4/4
Lyrics

Lyrics

Print

Download Tab


Verse :

  Bm            A     Em
|--------------------------------|
|-------3-----------2-----0------|
|-----4-4--4--------2-------0----|
|---4--------4----2-----2--------|
|-2-------------0----------------|
|---------------------0----------| x Repeat

***********************************************************

Chorus :

  G       D       A     Bm
|-----3-------3-2----------------|
|-----3-3-----3-3-----2-----3----|
|-------4---2---------2-----4----|
|---5-----0---------2-----4------|
|-----------------0-----2--------|
|-3------------------------------| x Repeat

***********************************************************

Bridge :

  A
|---------------|
|-----2----2----|
|-----2----2----|
|---2-----------|
|-0------0------|
|---------------|

***********************************************************

Verse variation :
  Bm            A     Em
|------------------------------|
|-------3-----3-----2-----0----|
|-----4-4-----4-----2-----0----|
|---4-------4-----2-----2------|
|-2-------2-----0--------------|
|---------------------0--------| x Repeat

-- Chorus --

***********************************************************

Chorus variation :

  G       D       A     Bm
|-----3-------3-2----------------------|
|-----3-3-----3-3-----2-----3h5p3p0----|
|-------4---2---------2----------------|
|---5-----0---------2-----4------------|
|-----------------0-----2--------------|
|-3------------------------------------|

***********************************************************

Tablature Legend
----------------
 h   - hammer-on
 p   - pull-off