The Past Recedes - Tab

by John Frusciante

Album : Curtains

Video soon

Tablature by Jean Buchet

Tuning: E A D G B E - 4/4
Lyrics

Lyrics

Print

Download Tab


Part 1 :

  G    D    Am       Em
|-3----2----0--------0----|
|-0----3----1--------0----|
|-0----2----2--------0----|
|-0----0----2--------2----|
|-2----0----0--------2----|
|-3------------------0----| X 3


  G    D    Am
|-3----2----0----|
|-0----3----1----|
|-0----2----2----|
|-0----0----2----|
|-2----0----0----|
|-3--------------| Repeat from begining

***********************************************************

  B7
|-2----|
|-0----|
|-2----|
|-1----|
|-2----|
|------|

***********************************************************

Part 2 :

  C    D7   Em   D
|-0----2----0----2----|
|-1----1----0----3----|
|-0----2----0----2----|
|-2----0----2----0----|
|-3---------2---------|
|-----------0---------| X 2


  C         Am   B7
|-0---------0----2----|
|-1---------1----0----|
|-0----1----2----2----|
|-2----0----2----1----|
|-3----2----0----2----|
|---------------------|