The Slaughter - Tab

by John Frusciante

Album : Shadows Collide With People

Video soon

Tablature by Jean Buchet

Tuning: E A D G B E - 4/4
Lyrics

Lyrics

Print

Download Tab


Intro :
  E
|-0------------|
|-0------------|
|-1------------|
|-2------------|
|-2------------|
|-0------------|

***********************************************************

Part 1 :

  E    G#m  A    C#m    E    G#m  C#m  A
|-0----4----5----4------0----4----4----5----|
|-0----4----5----5------0----4----5----5----|
|-1----4----6----6------1----4----6----6----|
|-2----6----7----6------2----6----6----7----|
|-2----6----7----4------2----6----4----7----|
|-0----4----5-----------0----4---------5----| X2


  C#m  A
|-4----4--|
|-5----4--|
|-6----5--|
|-6----7--|
|-4----7--|
|------5--|

***********************************************************

Verse :

  G#   A    A#°7 B    C#m  B7   E    A°7  C#m
|-4----5---------7----4----2----0---------4----|
|-4----5----5----7----5---------0----4----5----|
|-5----6----6----8----6----2----1----5----6----|
|-6----7----5----9----6----1----2----4----6----|
|-6----7---------9----4----2----2---------4----|
|-4----5----6----7--------------0----5---------|


  B    A    F#m6 E    A°7  C#m  B    A
|-7----5---------0---------4----7----5---------|
|-7----5----2----0----4----5----7----5---------|
|-8----6----2----1----5----6----8----6---------|
|-9----7----1----2----4----6----9----7---------|
|-9----7---------2---------4----9----7---------|
|-7----5----2----0----5---------7----5---------|

***********************************************************

Chorus :

  C#m  B    A    F#°  C#m  B    Am6  A7
|-4----7----5----5----4----7----0----0----|
|-5----7----5----7----5----7----5----5----|
|-6----8----6----5----6----8----5----6----|
|-6----9----7---------6----9----4----5----|
|-4----9----7---------4----9--------------|
|------7----5--------------7----5----5----|


  C#m  B    A    F#°  C#m  B    A7
|-4----7----5----5----4----7----0---------|
|-5----7----5----7----5----7----5---------|
|-6----8----6----5----6----8----6---------|
|-6----9----7---------6----9----5---------|
|-4----9----7---------4----9--------------|
|------7----5--------------7----5---------|


Repeat Verse > Part 1 > Chorus