The Will To Death - Tab

by John Frusciante

Album : The Will To Death

Video soon

Tablature by Jean Buchet

Tuning: E A D G B E - 4/4
Lyrics

Lyrics

Print

Download Tab


Verse :

  E        B    F#m      A
|----------7----2--------5----|
|-9--------7----2--------5----|
|-9--------8----2--------6----|
|-9--------9----4--------7----|
|-7--------9----4--------7----|
|----------7----2--------5----| x Repeat


  E        B    F#m
|----------7----2--------|
|-9--------7----2--------|
|-9--------8----2--------|
|-9--------9----4--------|
|-7--------9----4--------|
|----------7----2--------|

***********************************************************

Chorus :

  F#m      E    B
|-2--------0---------|
|-2--------0----4----|
|-2--------1----4----|
|-4--------2----4----|
|-4--------2----2----|
|-2--------0---------| x Repeat

***********************************************************

End :

  C#m
|-4------------------|
|-5------------------|
|-6------------------|
|-6------------------|
|-4------------------|
|--------------------|


  E        B    F#m       A    E        B    F#m
|----------7----2---------5-------------7----2----|
|-9--------7----2---------5----9--------7----2----|
|-9--------8----2---------6----9--------8----2----|
|-9--------9----4---------7----9--------9----4----|
|-7--------9----4---------7----7--------9----4----|
|----------7----2---------5-------------7----2----|
x Repeat