This Cold - Tab

by John Frusciante

Album : Shadows Collide With People

Video soon

Tablature by Jean Buchet

Tuning: E A D G B E - 4/4
Lyrics

Lyrics

Print

Download Tab


  Am       F        C        G
|-0--------1--------0--------3----|
|-1--------1--------1--------0----|
|-2--------2--------0--------0----|
|-2--------3--------2--------0----|
|-0--------3--------3--------2----|
|----------1-----------------3----| Intro X4 / Verse X2


  Dm   Am   C        G
|-1----0----0--------3--------|
|-3----1----1--------0--------|
|-2----2----0--------0--------|
|-0----2----2--------0--------|
|-0----0----3--------2--------|
|--------------------3--------| X2

--Repeat from Verse--

***********************************************************

END :

  F         G        Am
|-1---------3--------0--------|
|-1---------0--------1--------|
|-2---------0--------2--------|
|-3---------0--------2--------|
|-3---------2--------0--------|
|-1---------3-----------------| X Repeat