Untitled #10 - Tab

by John Frusciante

Album : Niandra Lades and Usually just a T-shirt

Video soon

Tablature by Jean Buchet

Tuning: E A D G B E - 4/4
Print

Download Tab


                                        Am
|------------------10-/7---7---/3-3h5p3-0----|
|-----5-3h5-----------------------------1----|
|--------------------------------------------|
|---------------------------------0----------|
|-----------5-/7------------------------0----|
|-0-0------------8-------5---1---------------|


|-1p0-----3-/5----------13----|
|-----3-1------3--3-/15-------|
|-----------------------------|
|--------------0--------------|
|-1---------------------------|
|-----------------------------|


|----10-10---9-10--10-10-------------------|
|-10---------------------------8-----------|
|----10-10--10-10--10-10-----9--------7----|
|-------------------------10--------8------|
|--------------------------------10--------|
|------------------------------------------|


|-10-10--10-10---9-10--10-10-------------------|
|----------------------------------8-----------|
|-10-10--10-10--10-10--10-10-----9--------7----|
|-----------------------------10--------8------|
|------------------------------------10--------|
|----------------------------------------------|


|-10-10--10-10---9-10--10---------------------------|
|--------------------------------8------------------|
|-10-10--10-10--10-10--10------9--------7-----------|
|---------------------------10--------8----10-12----|
|----------------------------------10------10--9----|
|-------------------------------------------8-10----|

***********************************************************

Tablature Legend
----------------
 h   - hammer-on
 p   - pull-off
 /\  - slide into or out of (from/to "nowhere")