Untitled #11 - Tab

by John Frusciante

Album : Niandra Lades and Usually just a T-shirt

Tablature by Jean Buchet

Tuning: E A D G B E - 4/4
Lyrics

Lyrics

Print

Download Tab


  Am B  Dm   F   C    Gm  Dm
|-5--6--5---------8---10--5----|
|-5--6--6----10---8---11--6----|
|-5--7--7----10---9---12--7----|
|-7--8--7----10--10---12--7----|
|-7--8--5-----8--10---10--5----|
|-5--6------------8------------|


  C   B  Dm   G  Dm F  Dm G  Dm F  Dm
|--8--6--5----3--5--1--5--3--5--1--5----|
|--8--6--6----3--6--1--6--3--6--1--6----|
|--9--7--7----4--7--2--7--4--7--2--7----|
|-10--8--7----5--7--3--7--5--7--3--7----|
|-10--8--5----5--5--3--5--5--5--3--5----|
|--8--6-------3-----1-----3-----1-------|

***********************************************************