Water - Tab

by John Frusciante

Album : Shadows Collide With People

Video soon

Tablature by Jean Buchet

Tuning: E A D G B E - 4/4
Lyrics

Lyrics

Print

Download Tab


Intro
  E    B    A    E
|------7----5---------|
|-9----7----5----9----|
|-9----8----6----9----|
|-9----9----7----9----|
|-7----9----7----7----|
|------7----5---------|  x Repeat

***********************************************************

Verse
      G#m                       B6-9(no3)
|-----4-----------|           |-------|
|-----4-----------|           |-12----|
|-----4------6----|           |-11----|
|-----6----4------|           |-10----|
|-----------------|           |-11----|
|-4-4----6--------| x Repeat  |-------| 


      G#m                       G#m
|-----4-----------|           |-4----|
|-----4-----------|           |-4----|
|-----4------6----|           |-4----|
|-----6----4------|           |-6----|
|-----------------|           |-6----|
|-4-4----6--------| x Repeat  |-4----|

***********************************************************

Chorus
  E    B    A    E
|------7----5---------|
|-9----7----5----9----|
|-9----8----6----9----|
|-9----9----7----9----|
|-7----9----7----7----|
|------7----5---------|   x Repeat

***********************************************************

End
  E    B    A    E
|------7----5----0----|
|-9----7----5----0----|
|-9----8----6----1----|
|-9----9----7----2----|
|-7----9----7----2----|
|------7----5----0----|


  C#m  E    B    A
|-4----0--------------|
|-5----0----4----2----|
|-6----1----4----2----|
|-6----2----4----2----|
|-4----2----2----0----|
|------0--------------|  x Repeat


  C#m  E    B    F#m C#m
|-4----0---------2---4----|
|-5----0----4----2---5----|
|-6----1----4----2---6----|
|-6----2----4----4---6----|
|-4----2----2----4---4----|
|------0---------2--------|