Wednesday's song - Tab

by John Frusciante

Album : Shadows Collide With People

Video soon

Tablature by Jean Buchet

Tuning: E A D G B E - 4/4
Lyrics

Lyrics

Print

Download Tab


Verse

  Cm        Fm6     Ab+add9    Cm       Fadd9
|--8---------8--------8---------8--------3----|
|--8---------9--------9---------8--------4----|
|--8--------10--------7---------8--------2----|
|-10--------12--------8--------10-------------|
|-10---------8-----------------10--------3----|
|--8------------------6---------8--------1----|


  G#   D#   Fm      G#   D#   Fm    Fm6   Cm   G+5  Fadd9
|-4----------8------4----------8-----8-----8----3----3----|
|-4----8-----9------4----8-----9-----9-----8----4----4----|
|-5----8----10------5----8----10----10-----8----4----2----|
|-6----8----10------6----8----10----12----10----5---------|
|-6----6-----8------6----6-----8-----8----10---------3----|
|-4-----------------4----------------------8---------1----|

***********************************************************

Chorus

  C#   G# D# F    C#   G# D# F    C#   G# D# F    C#
|------4-----1---------4-----1---------4-----1------|
|-6----4--8--1----6----4--8--1----6----4--8--1----6-|
|-6----5--8--2----6----5--8--2----6----5--8--2----6-|
|-6----6--8--3----6----6--8--3----6----6--8--3----6-|
|-4----6--6--3----4----6--6--3----4----6--6--3----4-|
|------4-----1---------4-----1---------4-----1------|


  C# G# D# A#m
|----4-----6---8-------8-------8---8----|
|-6--4--8--6---6---6---6---6---6---6----|
|-6--5--8--6---6---6---6---6---6---6----|
|-6--6--8--8---8---8---8---8---8---8----|
|-4--6--6-------------------------------|
|----4-----6-6---6---6---6---6---6-6----|


  Fm                                          G+5  Fadd9
|--8--------------------------------------8----3---3------|
|--9-----8--9-----8--9-----8--9-----8--9--9----4---4------|
|-10----10-10----10-10----10-10----10-10-10----4---2------|
|-10-10-10-10-10-10-10-10-10-10-10-10-10-10----5----------|
|--8--8--------8--------8--------8--------8--------3------|
|--8--------------------------------------8--------1--6-7-|