Well I've been - Tab

by John Frusciante

Album : Smile From The Streets You Hold

Video soon

Tablature by Jean Buchet

Tuning: E A D G B E - 4/4
Lyrics

Lyrics

Print

Download Tab


|----0----0---0---0---0-0---0-0------|
|-0-12-0-10-0-8-0-7-0-5---5-5---5----|
|------------------------------------|
|------------------------------------|
|------------------------------------|
|------------------------------------| Repeat


                                                  AmG F
|-----0---0---0---0-0---0---0---0-----0---0---0---0-3-1----|
|-6-5-6-5-6-5-6-5-1---1---1---1---6-5-6-5-6-5-6-5-1-0-1----|
|-------------------------------------------------2-0-2----|
|-------------------------------------------------2-0-3----|
|-------------------------------------------------0-2-3----|
|---------------------------------------------------3-1----|
Repeat from the beginning

***********************************************************

End

  C
|----------|
|-1--------|
|-0--------|
|-2--------|
|-3--------|
|----------|


  C    G    E
|------3----0----|
|-1----0----0----|
|-0----0----0----|
|-2----0----2----|
|-3----2----2----|
|------3----0----|