Your Pussy's Glued to a Building on Fire - Tab

by John Frusciante

Album : Niandra Lades and Usually just a T-shirt

Video soon

Tablature by Jean Buchet

Tuning: E A D G B E - 4/4
Lyrics

Lyrics

Print

Download Tab


  C            Am           F     E    Dm
|-0--------------------------------------1-1-1-1----|
|-1--1-----1-----1------1-----1-----0----3-3-3-3----|
|-0--0-----0-----2------2-----2-----1--2-2-2-2-2----|
|-2--2-----0-----2------2-----3-----2--0-0-0-0------|
|-3----3-2---2-0----0-0---0-------------------------|
|---------------------------1---1-0-----------------|


  G        C         Am
|---3--------0---------0--0-0----|
|---3--------1----1----1--1-1----|
|---0--------0----0----2--2-2----|
|---0----0---2----0----2--2-2----|
|--------2-3-3--2----0-----------|
|-3----3-------------------------|


  Bb Dm Bb Dm A  C  Bb Dm
|----1-----1-----0-----1----|
|-3--3--3--3--2--1--3--3----|
|-3--2--3--2--2--0--3--2----|
|-3--0--3--0--2--2--3--0----|
|-1-----1-----0--3--1-------|
|---------------------------|


  A  C  Bb  Dm       Bb
|----0--------1--1------------|
|-2--1--3-----3--3-----3-3----|
|-2--0--3-----2--2-----3-3----|
|-2--2--3---0------0---3-3----|
|-0--3--1------------1---1----|
|-----------------------------|


  Dm  Bb  F  A   Dm Bb  F  A   Dm
|-1-------1------1------1------1----|
|-3---3---1--2---3--3---1--2---3----|
|-2---3---2--2---2--3---2--2---2----|
|-0---3---3--2---0--3---3--2---0----|
|-----1---3--0------1---3--0--------|
|---------1-------------1-----------|

***********************************************************